  0
SECTION
  2
HEADER
  9
$ACADVER
  1
AC1015
  9
$ACADMAINTVER
 70
     6
  9
$DWGCODEPAGE
  3
ANSI_1252
  9
$INSBASE
 10
0.0
 20
0.0
 30
0.0
  9
$EXTMIN
 10
-279.2
 20
-72.9
 30
0.0
  9
$EXTMAX
 10
279.2
 20
733.1
 30
0.0
  9
$LIMMIN
 10
0.0
 20
0.0
  9
$LIMMAX
 10
420.0
 20
297.0
  9
$ORTHOMODE
 70
     0
  9
$REGENMODE
 70
     1
  9
$FILLMODE
 70
     1
  9
$QTEXTMODE
 70
     0
  9
$MIRRTEXT
 70
     1
  9
$LTSCALE
 40
1.0
  9
$ATTMODE
 70
     1
  9
$TEXTSIZE
 40
3.5
  9
$TRACEWID
 40
1.0
  9
$TEXTSTYLE
  7
Standard
  9
$CLAYER
  8
0
  9
$CELTYPE
  6
ByLayer
  9
$CECOLOR
 62
   256
  9
$CELTSCALE
 40
1.0
  9
$DISPSILH
 70
     0
  9
$DIMSCALE
 40
1.0
  9
$DIMASZ
 40
3.302
  9
$DIMEXO
 40
1.0
  9
$DIMDLI
 40
3.75
  9
$DIMRND
 40
0.0
  9
$DIMDLE
 40
0.0
  9
$DIMEXE
 40
1.0
  9
$DIMTP
 40
0.0
  9
$DIMTM
 40
0.0
  9
$DIMTXT
 40
3.5
  9
$DIMCEN
 40
2.5
  9
$DIMTSZ
 40
0.0
  9
$DIMTOL
 70
     0
  9
$DIMLIM
 70
     0
  9
$DIMTIH
 70
     1
  9
$DIMTOH
 70
     1
  9
$DIMSE1
 70
     0
  9
$DIMSE2
 70
     0
  9
$DIMTAD
 70
     1
  9
$DIMZIN
 70
     1
  9
$DIMBLK
  1

  9
$DIMASO
 70
     1
  9
$DIMSHO
 70
     1
  9
$DIMPOST
  1

  9
$DIMAPOST
  1

  9
$DIMALT
 70
     0
  9
$DIMALTD
 70
     3
  9
$DIMALTF
 40
0.0393700787
  9
$DIMLFAC
 40
1.0
  9
$DIMTOFL
 70
     1
  9
$DIMTVP
 40
0.0
  9
$DIMTIX
 70
     0
  9
$DIMSOXD
 70
     0
  9
$DIMSAH
 70
     0
  9
$DIMBLK1
  1

  9
$DIMBLK2
  1

  9
$DIMSTYLE
  2
ISO-25
  9
$DIMCLRD
 70
     0
  9
$DIMCLRE
 70
     0
  9
$DIMCLRT
 70
     0
  9
$DIMTFAC
 40
1.0
  9
$DIMGAP
 40
1.524
  9
$DIMJUST
 70
     0
  9
$DIMSD1
 70
     0
  9
$DIMSD2
 70
     0
  9
$DIMTOLJ
 70
     0
  9
$DIMTZIN
 70
     1
  9
$DIMALTZ
 70
     0
  9
$DIMALTTZ
 70
     0
  9
$DIMUPT
 70
     0
  9
$DIMDEC
 70
     2
  9
$DIMTDEC
 70
     2
  9
$DIMALTU
 70
     2
  9
$DIMALTTD
 70
     3
  9
$DIMTXSTY
  7
Standard
  9
$DIMAUNIT
 70
     0
  9
$DIMADEC
 70
     2
  9
$DIMALTRND
 40
0.0
  9
$DIMAZIN
 70
     0
  9
$DIMDSEP
 70
    44
  9
$DIMATFIT
 70
     3
  9
$DIMFRAC
 70
     0
  9
$DIMLDRBLK
  1

  9
$DIMLUNIT
 70
     2
  9
$DIMLWD
 70
    -2
  9
$DIMLWE
 70
    -2
  9
$DIMTMOVE
 70
     0
  9
$LUNITS
 70
     2
  9
$LUPREC
 70
     2
  9
$SKETCHINC
 40
1.0
  9
$FILLETRAD
 40
10.0
  9
$AUNITS
 70
     0
  9
$AUPREC
 70
     2
  9
$MENU
  1
.
  9
$ELEVATION
 40
0.0
  9
$PELEVATION
 40
0.0
  9
$THICKNESS
 40
0.0
  9
$LIMCHECK
 70
     0
  9
$CHAMFERA
 40
0.0
  9
$CHAMFERB
 40
0.0
  9
$CHAMFERC
 40
0.0
  9
$CHAMFERD
 40
0.0
  9
$SKPOLY
 70
     0
  9
$TDCREATE
 40
2459257.472605544
  9
$TDUCREATE
 40
2459257.472605544
  9
$TDUPDATE
 40
2459257.472675139
  9
$TDUUPDATE
 40
2459257.472675139
  9
$TDINDWG
 40
0.0000000116
  9
$TDUSRTIMER
 40
0.0000000116
  9
$USRTIMER
 70
     1
  9
$ANGBASE
 50
0.0
  9
$ANGDIR
 70
     0
  9
$PDMODE
 70
     0
  9
$PDSIZE
 40
-1.0
  9
$PLINEWID
 40
0.0
  9
$SPLFRAME
 70
     0
  9
$SPLINETYPE
 70
     6
  9
$SPLINESEGS
 70
     8
  9
$HANDSEED
  5
246
  9
$SURFTAB1
 70
     6
  9
$SURFTAB2
 70
     6
  9
$SURFTYPE
 70
     6
  9
$SURFU
 70
     6
  9
$SURFV
 70
     6
  9
$UCSBASE
  2

  9
$UCSNAME
  2

  9
$UCSORG
 10
0.0
 20
0.0
 30
0.0
  9
$UCSXDIR
 10
1.0
 20
0.0
 30
0.0
  9
$UCSYDIR
 10
0.0
 20
1.0
 30
0.0
  9
$UCSORTHOREF
  2

  9
$UCSORTHOVIEW
 70
     0
  9
$UCSORGTOP
 10
0.0
 20
0.0
 30
0.0
  9
$UCSORGBOTTOM
 10
0.0
 20
0.0
 30
0.0
  9
$UCSORGLEFT
 10
0.0
 20
0.0
 30
0.0
  9
$UCSORGRIGHT
 10
0.0
 20
0.0
 30
0.0
  9
$UCSORGFRONT
 10
0.0
 20
0.0
 30
0.0
  9
$UCSORGBACK
 10
0.0
 20
0.0
 30
0.0
  9
$PUCSBASE
  2

  9
$PUCSNAME
  2

  9
$PUCSORG
 10
0.0
 20
0.0
 30
0.0
  9
$PUCSXDIR
 10
1.0
 20
0.0
 30
0.0
  9
$PUCSYDIR
 10
0.0
 20
1.0
 30
0.0
  9
$PUCSORTHOREF
  2

  9
$PUCSORTHOVIEW
 70
     0
  9
$PUCSORGTOP
 10
0.0
 20
0.0
 30
0.0
  9
$PUCSORGBOTTOM
 10
0.0
 20
0.0
 30
0.0
  9
$PUCSORGLEFT
 10
0.0
 20
0.0
 30
0.0
  9
$PUCSORGRIGHT
 10
0.0
 20
0.0
 30
0.0
  9
$PUCSORGFRONT
 10
0.0
 20
0.0
 30
0.0
  9
$PUCSORGBACK
 10
0.0
 20
0.0
 30
0.0
  9
$USERI1
 70
     0
  9
$USERI2
 70
     0
  9
$USERI3
 70
     0
  9
$USERI4
 70
     0
  9
$USERI5
 70
     0
  9
$USERR1
 40
0.0
  9
$USERR2
 40
0.0
  9
$USERR3
 40
0.0
  9
$USERR4
 40
0.0
  9
$USERR5
 40
0.0
  9
$WORLDVIEW
 70
     1
  9
$SHADEDGE
 70
     3
  9
$SHADEDIF
 70
    70
  9
$TILEMODE
 70
     1
  9
$MAXACTVP
 70
    64
  9
$PINSBASE
 10
0.0
 20
0.0
 30
0.0
  9
$PLIMCHECK
 70
     0
  9
$PEXTMIN
 10
-279.2
 20
-72.9
 30
0.0
  9
$PEXTMAX
 10
279.2
 20
733.1
 30
0.0
  9
$PLIMMIN
 10
-361.8666666667
 20
-103.9
  9
$PLIMMAX
 10
865.7333333333
 20
764.1
  9
$UNITMODE
 70
     0
  9
$VISRETAIN
 70
     1
  9
$PLINEGEN
 70
     0
  9
$PSLTSCALE
 70
     1
  9
$TREEDEPTH
 70
  3020
  9
$CMLSTYLE
  2
Standard
  9
$CMLJUST
 70
     0
  9
$CMLSCALE
 40
20.0
  9
$PROXYGRAPHICS
 70
     1
  9
$MEASUREMENT
 70
     1
  9
$CELWEIGHT
370
    -1
  9
$ENDCAPS
280
     0
  9
$JOINSTYLE
280
     0
  9
$LWDISPLAY
290
     1
  9
$INSUNITS
 70
     4
  9
$HYPERLINKBASE
  1

  9
$STYLESHEET
  1

  9
$XEDIT
290
     1
  9
$CEPSNTYPE
380
     0
  9
$PSTYLEMODE
290
     1
  9
$FINGERPRINTGUID
  2
{d54e8c0d-436b-4d2d-a117-21e25ad0cf14}
  9
$VERSIONGUID
  2
{FAEB1C32-E019-11D5-929B-00C0DF256EC4}
  9
$EXTNAMES
290
     1
  9
$PSVPSCALE
 40
0.0
  9
$OLESTARTUP
290
     0
  0
ENDSEC
  0
SECTION
  2
CLASSES
  0
CLASS
  1
ACDBDICTIONARYWDFLT
  2
AcDbDictionaryWithDefault
  3
ObjectDBX Classes
 90
        0
280
     0
281
     0
  0
CLASS
  1
VISUALSTYLE
  2
AcDbVisualStyle
  3
ObjectDBX Classes
 90
     4095
280
     0
281
     0
  0
CLASS
  1
MATERIAL
  2
AcDbMaterial
  3
ObjectDBX Classes
 90
     1153
280
     0
281
     0
  0
CLASS
  1
SCALE
  2
AcDbScale
  3
ObjectDBX Classes
 90
     1153
280
     0
281
     0
  0
CLASS
  1
TABLESTYLE
  2
AcDbTableStyle
  3
ObjectDBX Classes
 90
     4095
280
     0
281
     0
  0
CLASS
  1
MLEADERSTYLE
  2
AcDbMLeaderStyle
  3
ACDB_MLEADERSTYLE_CLASS
 90
     4095
280
     0
281
     0
  0
CLASS
  1
SUN
  2
AcDbSun
  3
SCENEOE
 90
     1153
280
     0
281
     0
  0
CLASS
  1
ACDBPLACEHOLDER
  2
AcDbPlaceHolder
  3
ObjectDBX Classes
 90
        0
280
     0
281
     0
  0
CLASS
  1
LAYOUT
  2
AcDbLayout
  3
ObjectDBX Classes
 90
        0
280
     0
281
     0
  0
ENDSEC
  0
SECTION
  2
TABLES
  0
TABLE
  2
VPORT
  5
8
330
0
100
AcDbSymbolTable
 70
     1
  0
VPORT
  5
29
330
8
100
AcDbSymbolTableRecord
100
AcDbViewportTableRecord
  2
*Active
 70
     0
 10
0.0
 20
0.0
 11
1.0
 21
1.0
 12
0.0
 22
330.1
 13
0.0
 23
0.0
 14
10.0
 24
10.0
 15
10.0
 25
10.0
 16
0.0
 26
0.0
 36
1.0
 17
0.0
 27
0.0
 37
0.0
 40
822.12
 41
0.6928039702
 42
50.0
 43
0.0
 44
0.0
 50
0.0
 51
0.0
 71
     0
 72
   100
 73
     1
 74
     3
 75
     0
 76
     0
 77
     0
 78
     0
281
     0
 65
     1
110
0.0
120
0.0
130
0.0
111
1.0
121
0.0
131
0.0
112
0.0
122
1.0
132
0.0
 79
     0
146
0.0
  0
ENDTAB
  0
TABLE
  2
LTYPE
  5
5
330
0
100
AcDbSymbolTable
 70
     6
  0
LTYPE
  5
14
330
5
100
AcDbSymbolTableRecord
100
AcDbLinetypeTableRecord
  2
ByBlock
 70
     0
  3

 72
    65
 73
     0
 40
0.0
  0
LTYPE
  5
15
330
5
100
AcDbSymbolTableRecord
100
AcDbLinetypeTableRecord
  2
ByLayer
 70
     0
  3

 72
    65
 73
     0
 40
0.0
  0
LTYPE
  5
16
330
5
100
AcDbSymbolTableRecord
100
AcDbLinetypeTableRecord
  2
Continuous
 70
     0
  3
Solid line
 72
    65
 73
     0
 40
0.0
  0
LTYPE
  5
6E
330
5
100
AcDbSymbolTableRecord
100
AcDbLinetypeTableRecord
  2
HIDDEN
 70
     0
  3
Hidden __ __ __ __ __ __ __ __ __ __ __ __ __ __
 72
    65
 73
     2
 40
1.905
 49
1.27
 74
     0
 49
-0.635
 74
     0
  0
LTYPE
  5
6F
330
5
100
AcDbSymbolTableRecord
100
AcDbLinetypeTableRecord
  2
PHANTOM
 70
     0
  3
Phantom ______  __  __  ______  __  __  ______
 72
    65
 73
     6
 40
12.7
 49
6.35
 74
     0
 49
-1.27
 74
     0
 49
1.27
 74
     0
 49
-1.27
 74
     0
 49
1.27
 74
     0
 49
-1.27
 74
     0
  0
LTYPE
  5
70
330
5
100
AcDbSymbolTableRecord
100
AcDbLinetypeTableRecord
  2
CENTER
 70
     0
  3
Center ____ _ ____ _ ____ _ ____ _ ____ _ ____
 72
    65
 73
     4
 40
10.16
 49
6.35
 74
     0
 49
-1.27
 74
     0
 49
1.27
 74
     0
 49
-1.27
 74
     0
  0
LTYPE
  5
71
330
5
100
AcDbSymbolTableRecord
100
AcDbLinetypeTableRecord
  2
CENTERX2
 70
     0
  3
Center (2x) ________  __  ________  __  _____
 72
    65
 73
     4
 40
20.32
 49
12.7
 74
     0
 49
-2.54
 74
     0
 49
2.54
 74
     0
 49
-2.54
 74
     0
  0
LTYPE
  5
72
330
5
100
AcDbSymbolTableRecord
100
AcDbLinetypeTableRecord
  2
DOT2
 70
     0
  3
Dot (.5x) ........................................
 72
    65
 73
     2
 40
0.635
 49
0.0
 74
     0
 49
-0.635
 74
     0
  0
ENDTAB
  0
TABLE
  2
LAYER
  5
2
330
0
100
AcDbSymbolTable
 70
     1
  0
LAYER
  5
10
330
2
100
AcDbSymbolTableRecord
100
AcDbLayerTableRecord
  2
0
 70
     0
 62
     7
  6
Continuous
370
    -3
390
F
  0
ENDTAB
  0
TABLE
  2
STYLE
  5
3
330
0
100
AcDbSymbolTable
 70
     1
  0
STYLE
  5
11
330
3
100
AcDbSymbolTableRecord
100
AcDbTextStyleTableRecord
  2
Standard
 70
     0
 40
0.0
 41
1.0
 50
0.0
 71
     0
 42
3.5
  3
txt
  4

  0
ENDTAB
  0
TABLE
  2
VIEW
  5
6
330
0
100
AcDbSymbolTable
 70
     0
  0
ENDTAB
  0
TABLE
  2
UCS
  5
7
330
0
100
AcDbSymbolTable
 70
     0
  0
ENDTAB
  0
TABLE
  2
APPID
  5
9
330
0
100
AcDbSymbolTable
 70
     1
  0
APPID
  5
12
330
9
100
AcDbSymbolTableRecord
100
AcDbRegAppTableRecord
  2
ACAD
 70
     0
  0
ENDTAB
  0
TABLE
  2
DIMSTYLE
  5
A
330
0
100
AcDbSymbolTable
 70
     1
100
AcDbDimStyleTable
  0
DIMSTYLE
105
27
330
A
100
AcDbSymbolTableRecord
100
AcDbDimStyleTableRecord
  2
ISO-25
 70
     0
 41
2.5
 42
0.625
 43
3.75
 44
1.25
 73
     0
 74
     0
 77
     1
 78
     8
140
2.5
141
2.5
143
0.0393700787
147
0.625
171
     3
172
     1
178
     0
271
     2
272
     2
274
     3
278
    44
283
     0
284
     8
340
11
  0
ENDTAB
  0
TABLE
  2
BLOCK_RECORD
  5
1
330
0
100
AcDbSymbolTable
 70
     3
  0
BLOCK_RECORD
  5
1F
330
1
100
AcDbSymbolTableRecord
100
AcDbBlockTableRecord
  2
*Model_Space
340
22
  0
BLOCK_RECORD
  5
1B
330
1
100
AcDbSymbolTableRecord
100
AcDbBlockTableRecord
  2
*Paper_Space
340
1E
  0
BLOCK_RECORD
  5
23
330
1
100
AcDbSymbolTableRecord
100
AcDbBlockTableRecord
  2
*Paper_Space0
340
26
  0
BLOCK_RECORD
  5
153
330
1
100
AcDbSymbolTableRecord
100
AcDbBlockTableRecord
  2
*Paper_Space1
340
154
  0
BLOCK_RECORD
  5
17D
330
1
100
AcDbSymbolTableRecord
100
AcDbBlockTableRecord
  2
*Paper_Space2
340
17E
  0
ENDTAB
  0
ENDSEC
  0
SECTION
  2
BLOCKS
  0
BLOCK
  5
20
330
1F
100
AcDbEntity
  8
0
100
AcDbBlockBegin
  2
*Model_Space
 70
     0
 10
0.0
 20
0.0
 30
0.0
  3
*Model_Space
  1

  0
ENDBLK
  5
21
330
1F
100
AcDbEntity
  8
0
100
AcDbBlockEnd
  0
BLOCK
  5
1C
330
1B
100
AcDbEntity
 67
     1
  8
0
100
AcDbBlockBegin
  2
*Paper_Space
 70
     0
 10
0.0
 20
0.0
 30
0.0
  3
*Paper_Space
  1

  0
ENDBLK
  5
1D
330
1B
100
AcDbEntity
 67
     1
  8
0
100
AcDbBlockEnd
  0
BLOCK
  5
24
330
23
100
AcDbEntity
  8
0
100
AcDbBlockBegin
  2
*Paper_Space0
 70
     0
 10
0.0
 20
0.0
 30
0.0
  3
*Paper_Space0
  1

  0
LINE
  5
13D
330
23
100
AcDbEntity
  8
0
  6
Continuous
 62
     7
370
    25
100
AcDbLine
 10
-207.0
 20
-66.9
 30
0.0
 11
-207.0
 21
-72.9
 31
0.0
  0
LINE
  5
13E
330
23
100
AcDbEntity
  8
0
  6
Continuous
 62
     7
370
    25
100
AcDbLine
 10
181.0
 20
-66.9
 30
0.0
 11
-231.0
 21
-66.9
 31
0.0
  0
LINE
  5
13F
330
23
100
AcDbEntity
  8
0
  6
Continuous
 62
     7
370
    25
100
AcDbLine
 10
-157.0
 20
-66.9
 30
0.0
 11
-157.0
 21
-72.9
 31
0.0
  0
LINE
  5
140
330
23
100
AcDbEntity
  8
0
  6
Continuous
 62
     7
370
    25
100
AcDbLine
 10
-207.0
 20
-72.9
 30
0.0
 11
-157.0
 21
-72.9
 31
0.0
  0
LINE
  5
141
330
23
100
AcDbEntity
  8
0
  6
Continuous
 62
     7
370
    25
100
AcDbLine
 10
-231.0
 20
-66.9
 30
0.0
 11
-231.0
 21
733.1
 31
0.0
  0
LINE
  5
142
330
23
100
AcDbEntity
  8
0
  6
Continuous
 62
     7
370
    25
100
AcDbLine
 10
181.0
 20
733.1
 30
0.0
 11
181.0
 21
-66.9
 31
0.0
  0
LINE
  5
143
330
23
100
AcDbEntity
  8
0
  6
Continuous
 62
     7
370
    25
100
AcDbLine
 10
-231.0
 20
733.1
 30
0.0
 11
181.0
 21
733.1
 31
0.0
  0
LINE
  5
144
330
23
100
AcDbEntity
  8
0
  6
Continuous
 62
     7
370
    25
100
AcDbLine
 10
181.0
 20
10.2
 30
0.0
 11
199.5
 21
10.2
 31
0.0
  0
LINE
  5
145
330
23
100
AcDbEntity
  8
0
  6
Continuous
 62
     7
370
    25
100
AcDbLine
 10
184.5
 20
-66.4
 30
0.0
 11
184.5
 21
10.2
 31
0.0
  0
LINE
  5
146
330
23
100
AcDbEntity
  8
0
  6
Continuous
 62
     7
370
    25
100
AcDbLine
 10
199.5
 20
-66.4
 30
0.0
 11
181.0
 21
-66.4
 31
0.0
  0
LINE
  5
147
330
23
100
AcDbEntity
  8
0
  6
Continuous
 62
     7
370
    25
100
AcDbLine
 10
199.5
 20
10.2
 30
0.0
 11
199.5
 21
-66.4
 31
0.0
  0
LINE
  5
148
330
23
100
AcDbEntity
  8
0
  6
Continuous
 62
     7
370
    25
100
AcDbLine
 10
184.5
 20
16.5
 30
0.0
 11
184.5
 21
636.5
 31
0.0
  0
LINE
  5
149
330
23
100
AcDbEntity
  8
0
  6
Continuous
 62
     7
370
    25
100
AcDbLine
 10
199.5
 20
636.5
 30
0.0
 11
199.5
 21
16.5
 31
0.0
  0
LINE
  5
14A
330
23
100
AcDbEntity
  8
0
  6
Continuous
 62
     7
370
    25
100
AcDbLine
 10
199.5
 20
16.5
 30
0.0
 11
181.0
 21
16.5
 31
0.0
  0
LINE
  5
14B
330
23
100
AcDbEntity
  8
0
  6
Continuous
 62
     7
370
    25
100
AcDbLine
 10
181.0
 20
636.5
 30
0.0
 11
199.5
 21
636.5
 31
0.0
  0
LINE
  5
14C
330
23
100
AcDbEntity
  8
0
  6
Continuous
 62
     7
370
    25
100
AcDbLine
 10
103.0
 20
-66.9
 30
0.0
 11
103.0
 21
-72.9
 31
0.0
  0
LINE
  5
14D
330
23
100
AcDbEntity
  8
0
  6
Continuous
 62
     7
370
    25
100
AcDbLine
 10
153.0
 20
-66.9
 30
0.0
 11
153.0
 21
-72.9
 31
0.0
  0
LINE
  5
14E
330
23
100
AcDbEntity
  8
0
  6
Continuous
 62
     7
370
    25
100
AcDbLine
 10
103.0
 20
-72.9
 30
0.0
 11
153.0
 21
-72.9
 31
0.0
  0
LINE
  5
14F
330
23
100
AcDbEntity
  8
0
  6
Continuous
 62
     7
370
    25
100
AcDbLine
 10
181.0
 20
728.1
 30
0.0
 11
199.5
 21
728.1
 31
0.0
  0
LINE
  5
150
330
23
100
AcDbEntity
  8
0
  6
Continuous
 62
     7
370
    25
100
AcDbLine
 10
184.5
 20
651.5
 30
0.0
 11
184.5
 21
728.1
 31
0.0
  0
LINE
  5
151
330
23
100
AcDbEntity
  8
0
  6
Continuous
 62
     7
370
    25
100
AcDbLine
 10
199.5
 20
651.5
 30
0.0
 11
181.0
 21
651.5
 31
0.0
  0
LINE
  5
152
330
23
100
AcDbEntity
  8
0
  6
Continuous
 62
     7
370
    25
100
AcDbLine
 10
199.5
 20
728.1
 30
0.0
 11
199.5
 21
651.5
 31
0.0
  0
VIEWPORT
  5
240
330
23
100
AcDbEntity
  8
0
100
AcDbViewport
 10
0.0
 20
0.0
 30
0.0
 40
205.6
 41
156.0
 68
     1
 69
     1
 12
0.0
 22
330.1
 13
0.0
 23
0.0
 14
10.0
 24
10.0
 15
10.0
 25
10.0
 16
0.0
 26
0.0
 36
1.0
 17
0.0
 27
0.0
 37
0.0
 42
50.0
 43
0.0
 44
0.0
 45
822.12
 50
0.0
 51
0.0
 72
   100
 90
   557152
  1

281
     0
 71
     1
 74
     0
110
0.0
120
0.0
130
0.0
111
1.0
121
0.0
131
0.0
112
0.0
122
1.0
132
0.0
 79
     0
146
0.0
  0
ENDBLK
  5
25
330
23
100
AcDbEntity
  8
0
100
AcDbBlockEnd
  0
BLOCK
  5
155
330
153
100
AcDbEntity
  8
0
100
AcDbBlockBegin
  2
*Paper_Space1
 70
     0
 10
0.0
 20
0.0
 30
0.0
  3
*Paper_Space1
  1

  0
LINE
  5
16C
330
153
100
AcDbEntity
  8
0
  6
Continuous
 62
     7
370
    25
100
AcDbLine
 10
261.0
 20
231.0
 30
0.0
 11
261.0
 21
-181.0
 31
0.0
  0
LINE
  5
16D
330
153
100
AcDbEntity
  8
0
  6
Continuous
 62
     7
370
    25
100
AcDbLine
 10
261.0
 20
231.0
 30
0.0
 11
279.2
 21
231.0
 31
0.0
  0
LINE
  5
16E
330
153
100
AcDbEntity
  8
0
  6
Continuous
 62
     7
370
    25
100
AcDbLine
 10
279.2
 20
231.0
 30
0.0
 11
279.2
 21
-184.5
 31
0.0
  0
LINE
  5
16F
330
153
100
AcDbEntity
  8
0
  6
Continuous
 62
     7
370
    25
100
AcDbLine
 10
-261.0
 20
231.0
 30
0.0
 11
-279.2
 21
231.0
 31
0.0
  0
LINE
  5
170
330
153
100
AcDbEntity
  8
0
  6
Continuous
 62
     7
370
    25
100
AcDbLine
 10
-261.0
 20
231.0
 30
0.0
 11
-261.0
 21
-181.0
 31
0.0
  0
LINE
  5
171
330
153
100
AcDbEntity
  8
0
  6
Continuous
 62
     7
370
    25
100
AcDbLine
 10
-279.2
 20
-181.0
 30
0.0
 11
279.2
 21
-181.0
 31
0.0
  0
LINE
  5
172
330
153
100
AcDbEntity
  8
0
  6
Continuous
 62
     7
370
    25
100
AcDbLine
 10
-279.2
 20
231.0
 30
0.0
 11
-279.2
 21
-184.5
 31
0.0
  0
LINE
  5
173
330
153
100
AcDbEntity
  8
0
  6
Continuous
 62
     7
370
    25
100
AcDbLine
 10
261.0
 20
183.9
 30
0.0
 11
-261.0
 21
183.9
 31
0.0
  0
LINE
  5
174
330
153
100
AcDbEntity
  8
0
  6
Continuous
 62
     7
370
    25
100
AcDbLine
 10
-277.8
 20
-181.0
 30
0.0
 11
-277.8
 21
-184.5
 31
0.0
  0
LINE
  5
175
330
153
100
AcDbEntity
  8
0
  6
Continuous
 62
     7
370
    25
100
AcDbLine
 10
-262.8
 20
-199.5
 30
0.0
 11
264.2
 21
-199.5
 31
0.0
  0
LINE
  5
176
330
153
100
AcDbEntity
  8
0
  6
Continuous
 62
     7
370
    25
100
AcDbLine
 10
261.0
 20
-162.4
 30
0.0
 11
-261.0
 21
-162.4
 31
0.0
  0
LINE
  5
177
330
153
100
AcDbEntity
  8
0
  6
Continuous
 62
     7
370
    25
100
AcDbLine
 10
261.0
 20
-180.6
 30
0.0
 11
-261.0
 21
-180.6
 31
0.0
  0
LINE
  5
178
330
153
100
AcDbEntity
  8
0
  6
Continuous
 62
     7
370
    25
100
AcDbLine
 10
261.0
 20
182.1
 30
0.0
 11
-261.0
 21
182.1
 31
0.0
  0
LINE
  5
179
330
153
100
AcDbEntity
  8
0
  6
Continuous
 62
     7
370
    25
100
AcDbLine
 10
261.0
 20
163.9
 30
0.0
 11
-261.0
 21
163.9
 31
0.0
  0
ARC
  5
17A
330
153
100
AcDbEntity
  8
0
  6
Continuous
 62
     7
370
    25
100
AcDbCircle
 10
-264.2
 20
-184.5
 30
0.0
 40
15.0
100
AcDbArc
 50
180.0
 51
270.0
  0
ARC
  5
17B
330
153
100
AcDbEntity
  8
0
  6
Continuous
 62
     7
370
    25
100
AcDbCircle
 10
264.2
 20
-184.5
 30
0.0
 40
15.0
100
AcDbArc
 50
270.0
 51
0.0
  0
ARC
  5
17C
330
153
100
AcDbEntity
  8
0
  6
Continuous
 62
     7
370
    25
100
AcDbCircle
 10
-262.8
 20
-184.5
 30
0.0
 40
15.00000000000006
100
AcDbArc
 50
180.0
 51
270.0
  0
VIEWPORT
  5
242
330
153
100
AcDbEntity
  8
0
100
AcDbViewport
 10
0.0
 20
0.0
 30
0.0
 40
205.6
 41
156.0
 68
     1
 69
     1
 12
0.0
 22
330.1
 13
0.0
 23
0.0
 14
10.0
 24
10.0
 15
10.0
 25
10.0
 16
0.0
 26
0.0
 36
1.0
 17
0.0
 27
0.0
 37
0.0
 42
50.0
 43
0.0
 44
0.0
 45
822.12
 50
0.0
 51
0.0
 72
   100
 90
   557152
  1

281
     0
 71
     1
 74
     0
110
0.0
120
0.0
130
0.0
111
1.0
121
0.0
131
0.0
112
0.0
122
1.0
132
0.0
 79
     0
146
0.0
  0
ENDBLK
  5
156
330
153
100
AcDbEntity
  8
0
100
AcDbBlockEnd
  0
BLOCK
  5
17F
330
17D
100
AcDbEntity
  8
0
100
AcDbBlockBegin
  2
*Paper_Space2
 70
     0
 10
0.0
 20
0.0
 30
0.0
  3
*Paper_Space2
  1

  0
LWPOLYLINE
  5
196
330
17D
100
AcDbEntity
  8
0
  6
Continuous
 62
     7
370
    25
100
AcDbPolyline
 90
       17
 70
   128
 43
0.0
 10
-37.1938166904
 20
682.4336658693
 10
-37.2691721087
 20
682.8276314091
 10
-37.4837661841
 20
683.0746157528
 10
-37.804928914
 20
683.1370177729
 10
-38.1837661841
 20
683.0053373277
 10
-38.5626034542
 20
682.6996215711
 10
-38.8837661841
 20
682.2664129559
 10
-39.0983602595
 20
681.7716635665
 10
-39.1737156777
 20
681.2906945128
 10
-39.0983602595
 20
680.896728973
 10
-38.8837661841
 20
680.6497446293
 10
-38.5626034542
 20
680.5873426091
 10
-38.1837661841
 20
680.7190230544
 10
-37.804928914
 20
681.024738811
 10
-37.4837661841
 20
681.4579474262
 10
-37.2691721087
 20
681.9526968155
 10
-37.1938166904
 20
682.4336658693
  0
LWPOLYLINE
  5
197
330
17D
100
AcDbEntity
  8
0
  6
Continuous
 62
     7
370
    25
100
AcDbPolyline
 90
       17
 70
   128
 43
0.0
 10
-37.1938166904
 20
708.5629718497
 10
-37.2691721087
 20
708.9569373894
 10
-37.4837661841
 20
709.2039217331
 10
-37.804928914
 20
709.2663237533
 10
-38.1837661841
 20
709.134643308
 10
-38.5626034542
 20
708.8289275515
 10
-38.8837661841
 20
708.3957189362
 10
-39.0983602595
 20
707.9009695469
 10
-39.1737156777
 20
707.4200004931
 10
-39.0983602595
 20
707.0260349533
 10
-38.8837661841
 20
706.7790506096
 10
-38.5626034542
 20
706.7166485895
 10
-38.1837661841
 20
706.8483290347
 10
-37.804928914
 20
707.1540447913
 10
-37.4837661841
 20
707.5872534066
 10
-37.2691721087
 20
708.0820027959
 10
-37.1938166904
 20
708.5629718497
  0
LWPOLYLINE
  5
1A6
330
17D
100
AcDbEntity
  8
0
  6
Continuous
 62
     7
370
    25
100
AcDbPolyline
 90
        8
 70
   128
 43
0.0
 10
-331.6018203698
 20
43.4346830966
 10
-332.0941378273
 20
42.2171949536
 10
-332.2788127184
 20
40.8625795374
 10
-332.0941378273
 20
39.5079641212
 10
-331.5446604628
 20
38.1867038322
 10
-330.6439105812
 20
36.9313324838
 10
-329.414067634
 20
35.772761485
 10
-327.8854144362
 20
34.7395186987
  0
LWPOLYLINE
  5
1BB
330
17D
100
AcDbEntity
  8
0
  6
Continuous
 62
     7
370
    25
100
AcDbPolyline
 90
       11
 70
   128
 43
0.0
 10
-139.1586145375
 20
422.6549402084
 10
-132.838236142
 20
419.1535770734
 10
-126.5281530747
 20
415.952544641
 10
-120.238643894
 20
413.0570571054
 10
-113.979953645
 20
410.4718309556
 10
-107.7622771715
 20
408.2010772927
 10
-101.5957425097
 20
406.2484949701
 10
-95.4903943903
 20
404.6172645691
 10
-89.4561778767
 20
403.3100432173
 10
-83.5029221652
 20
402.3289602609
 10
-77.6403245743
 20
401.6756137957
  0
LWPOLYLINE
  5
1C0
330
17D
100
AcDbEntity
  8
0
  6
Continuous
 62
     7
370
    25
100
AcDbPolyline
 90
       11
 70
   128
 43
0.0
 10
-135.1281058847
 20
424.9817033271
 10
-128.8077274892
 20
421.4803401921
 10
-122.497644422
 20
418.2793077597
 10
-116.2081352413
 20
415.3838202241
 10
-109.9494449922
 20
412.7985940743
 10
-103.7317685187
 20
410.5278404114
 10
-97.565233857
 20
408.5752580888
 10
-91.4598857376
 20
406.9440276878
 10
-85.425669224
 20
405.636806336
 10
-79.4724135124
 20
404.6557233796
 10
-73.6098159215
 20
404.0023769144
  0
LWPOLYLINE
  5
1C2
330
17D
100
AcDbEntity
  8
0
  6
Continuous
 62
     7
370
    25
100
AcDbPolyline
 90
       13
 70
   128
 43
0.0
 10
-68.6948851681
 20
408.7596337256
 10
-69.2038889233
 20
408.7204214158
 10
-73.9726018568
 20
408.5383778525
 10
-78.8546181679
 20
408.681654001
 10
-83.839321719
 20
409.1499383018
 10
-88.9158730749
 20
409.9422124519
 10
-94.073233074
 20
411.0567536201
 10
-99.3001868328
 20
412.4911381924
 10
-104.5853681336
 20
414.2422470427
 10
-109.9172841407
 20
416.3062723158
 10
-115.2843403916
 20
418.6787257068
 10
-120.6748660103
 20
421.3544482221
 10
-126.0771390856
 20
424.3276213972
  0
LWPOLYLINE
  5
1CC
330
17D
100
AcDbEntity
  8
0
  6
Continuous
 62
     7
370
    25
100
AcDbPolyline
 90
       13
 70
   128
 43
0.0
 10
-187.2777696214
 20
477.2160757842
 10
-186.7687658662
 20
476.5891802478
 10
-182.0000529327
 20
470.9012979265
 10
-177.1180366216
 20
465.4079180219
 10
-172.1333330706
 20
460.1209861058
 10
-167.0567817146
 20
455.0519988209
 10
-161.8994217156
 20
450.2119788805
 10
-156.6724679568
 20
445.6114510996
 10
-151.3872866559
 20
441.2604195077
 10
-146.0553706488
 20
437.1683455952
 10
-140.6883143979
 20
433.3441277388
 10
-135.2977887792
 20
429.7960818514
 10
-129.895515704
 20
426.5319232991
  0
LWPOLYLINE
  5
1D1
330
17D
100
AcDbEntity
  8
0
  6
Continuous
 62
     7
370
    25
100
AcDbPolyline
 90
       11
 70
   128
 43
0.0
 10
-327.8854144362
 20
558.3851508601
 10
-329.414067634
 20
557.3519080738
 10
-330.6439105812
 20
556.193337075
 10
-331.5446604628
 20
554.9379657266
 10
-332.0941378273
 20
553.6167054376
 10
-332.2788127184
 20
552.2620900214
 10
-332.0941378273
 20
550.9074746052
 10
-331.5446604628
 20
549.5862143162
 10
-330.6439105812
 20
548.3308429679
 10
-329.414067634
 20
547.172271969
 10
-327.8854144362
 20
546.1390291827
  0
LWPOLYLINE
  5
1D8
330
17D
100
AcDbEntity
  8
0
  6
Continuous
 62
     7
370
    25
100
AcDbPolyline
 90
       11
 70
   128
 43
0.0
 10
-326.8954649425
 20
632.6088035505
 10
-328.4241181404
 20
631.5755607643
 10
-329.6539610876
 20
630.4169897654
 10
-330.5547109692
 20
629.161618417
 10
-331.1041883337
 20
627.8403581281
 10
-331.2888632247
 20
626.4857427119
 10
-331.1041883337
 20
625.1311272957
 10
-330.5547109692
 20
623.8098670067
 10
-329.6539610876
 20
622.5544956583
 10
-328.4241181404
 20
621.3959246595
 10
-326.8954649425
 20
620.3626818732
  0
LINE
  5
1E7
330
17D
100
AcDbEntity
  8
0
  6
Continuous
 62
     7
370
    25
100
AcDbLine
 10
-332.2788127184
 20
40.8625795374
 30
0.0
 11
-332.2788127184
 21
-21.6844466531
 31
0.0
  0
LINE
  5
1E8
330
17D
100
AcDbEntity
  8
0
  6
Continuous
 62
     7
370
    25
100
AcDbLine
 10
-332.2788127184
 20
552.2620900214
 30
0.0
 11
-332.2788127184
 21
46.0067866523
 31
0.0
  0
LINE
  5
1E9
330
17D
100
AcDbEntity
  8
0
  6
Continuous
 62
     7
370
    25
100
AcDbLine
 10
-331.2888632247
 20
626.4857427119
 30
0.0
 11
-331.2888632247
 21
563.9387165214
 31
0.0
  0
LINE
  5
1EA
330
17D
100
AcDbEntity
  8
0
  6
Continuous
 62
     7
370
    25
100
AcDbLine
 10
56.5685424949
 20
418.1798764806
 30
0.0
 11
69.4378859125
 21
410.750562663
 31
0.0
  0
LINE
  5
1EB
330
17D
100
AcDbEntity
  8
0
  6
Continuous
 62
     7
370
    25
100
AcDbLine
 10
347.8965363438
 20
586.3599475161
 30
0.0
 11
56.5685424949
 21
418.1798764806
 31
0.0
  0
LINE
  5
1EC
330
17D
100
AcDbEntity
  8
0
  6
Continuous
 62
     7
370
    25
100
AcDbLine
 10
347.8965363438
 20
586.3599475161
 30
0.0
 11
360.7658797614
 21
578.9306336985
 31
0.0
  0
LINE
  5
1ED
330
17D
100
AcDbEntity
  8
0
  6
Continuous
 62
     7
370
    25
100
AcDbLine
 10
360.7658797614
 20
578.9306336985
 30
0.0
 11
69.4378859125
 21
410.750562663
 31
0.0
  0
LINE
  5
1EE
330
17D
100
AcDbEntity
  8
0
  6
Continuous
 62
     7
370
    25
100
AcDbLine
 10
360.7658797614
 20
-74.3020158101
 30
0.0
 11
360.7658797614
 21
578.9306336985
 31
0.0
  0
LINE
  5
1EF
330
17D
100
AcDbEntity
  8
0
  6
Continuous
 62
     7
370
    25
100
AcDbLine
 10
69.4378859125
 20
-242.4820868456
 30
0.0
 11
360.7658797614
 21
-74.3020158101
 31
0.0
  0
LINE
  5
1F0
330
17D
100
AcDbEntity
  8
0
  6
Continuous
 62
     7
370
    25
100
AcDbLine
 10
69.4378859125
 20
410.750562663
 30
0.0
 11
69.4378859125
 21
-242.4820868456
 31
0.0
  0
LINE
  5
1F1
330
17D
100
AcDbEntity
  8
0
  6
Continuous
 62
     7
370
    25
100
AcDbLine
 10
68.0943255612
 20
-241.7064659643
 30
0.0
 11
69.4378859125
 21
-242.4820868456
 31
0.0
  0
LINE
  5
1F2
330
17D
100
AcDbEntity
  8
0
  6
Continuous
 62
     7
370
    25
100
AcDbLine
 10
56.5685424949
 20
418.1798764806
 30
0.0
 11
56.5685424949
 21
414.0971724212
 31
0.0
  0
LINE
  5
1F3
330
17D
100
AcDbEntity
  8
0
  6
Continuous
 62
     7
370
    25
100
AcDbLine
 10
56.5685424949
 20
340.1567293497
 30
0.0
 11
56.5685424949
 21
339.3020340525
 31
0.0
  0
LINE
  5
1F4
330
17D
100
AcDbEntity
  8
0
  6
Continuous
 62
     7
370
    25
100
AcDbLine
 10
308.4399779536
 20
-104.5091159475
 30
0.0
 11
308.4399779536
 21
-109.4083608188
 31
0.0
  0
LINE
  5
1F5
330
17D
100
AcDbEntity
  8
0
  6
Continuous
 62
     7
370
    25
100
AcDbLine
 10
343.7953170129
 20
-84.098913152
 30
0.0
 11
343.7953170129
 21
-88.9981580233
 31
0.0
  0
LINE
  5
1F6
330
17D
100
AcDbEntity
  8
0
  6
Continuous
 62
     7
370
    25
100
AcDbLine
 10
308.4399779536
 20
-109.4083608188
 30
0.0
 11
343.7953170129
 21
-88.9981580233
 31
0.0
  0
LINE
  5
1F7
330
17D
100
AcDbEntity
  8
0
  6
Continuous
 62
     7
370
    25
100
AcDbLine
 10
304.196647662
 20
-106.9587383832
 30
0.0
 11
308.4399779536
 21
-109.4083608188
 31
0.0
  0
LINE
  5
1F8
330
17D
100
AcDbEntity
  8
0
  6
Continuous
 62
     7
370
    25
100
AcDbLine
 10
-21.2132034356
 20
799.4424647018
 30
0.0
 11
-312.5411972845
 21
631.2623936664
 31
0.0
  0
LINE
  5
1F9
330
17D
100
AcDbEntity
  8
0
  6
Continuous
 62
     7
370
    25
100
AcDbLine
 10
-21.2132034356
 20
562.7337723692
 30
0.0
 11
-21.2132034356
 21
799.4424647018
 31
0.0
  0
LINE
  5
1FA
330
17D
100
AcDbEntity
  8
0
  6
Continuous
 62
     7
370
    25
100
AcDbLine
 10
-312.5411972845
 20
631.2623936664
 30
0.0
 11
-312.5411972845
 21
627.1796896069
 31
0.0
  0
LINE
  5
1FB
330
17D
100
AcDbEntity
  8
0
  6
Continuous
 62
     7
370
    25
100
AcDbLine
 10
-56.4978318168
 20
519.2520784109
 30
0.0
 11
-56.4978318168
 21
479.3690009614
 31
0.0
  0
LINE
  5
1FC
330
17D
100
AcDbEntity
  8
0
  6
Continuous
 62
     7
370
    25
100
AcDbLine
 10
-21.2132034356
 20
799.4424647018
 30
0.0
 11
-34.0825468532
 21
806.8717785194
 31
0.0
  0
LINE
  5
1FD
330
17D
100
AcDbEntity
  8
0
  6
Continuous
 62
     7
370
    25
100
AcDbLine
 10
-312.5411972845
 20
631.2623936664
 30
0.0
 11
-325.410540702
 21
638.6917074839
 31
0.0
  0
LINE
  5
1FE
330
17D
100
AcDbEntity
  8
0
  6
Continuous
 62
     7
370
    25
100
AcDbLine
 10
-34.0825468532
 20
806.8717785194
 30
0.0
 11
-325.410540702
 21
638.6917074839
 31
0.0
  0
LINE
  5
1FF
330
17D
100
AcDbEntity
  8
0
  6
Continuous
 62
     7
370
    25
100
AcDbLine
 10
-325.410540702
 20
638.6917074839
 30
0.0
 11
-325.410540702
 21
633.466032068
 31
0.0
  0
LINE
  5
200
330
17D
100
AcDbEntity
  8
0
  6
Continuous
 62
     7
370
    25
100
AcDbLine
 10
65.9730626847
 20
-180.3840187666
 30
0.0
 11
65.9730626847
 21
-242.931044957
 31
0.0
  0
LINE
  5
201
330
17D
100
AcDbEntity
  8
0
  6
Continuous
 62
     7
370
    25
100
AcDbLine
 10
44.7598592491
 20
-242.931044957
 30
0.0
 11
44.7598592491
 21
-180.3840187666
 31
0.0
  0
LINE
  5
202
330
17D
100
AcDbEntity
  8
0
  6
Continuous
 62
     7
370
    25
100
AcDbLine
 10
64.7958225251
 20
-176.8469840969
 30
0.0
 11
68.4479364189
 21
-178.9553045709
 31
0.0
  0
LINE
  5
203
330
17D
100
AcDbEntity
  8
0
  6
Continuous
 62
     7
370
    25
100
AcDbLine
 10
68.4479364189
 20
-178.9553045709
 30
0.0
 11
65.9730626847
 21
-180.3840187666
 31
0.0
  0
LINE
  5
204
330
17D
100
AcDbEntity
  8
0
  6
Continuous
 62
     7
370
    25
100
AcDbLine
 10
-327.8854144362
 20
34.7395186987
 30
0.0
 11
44.7598592491
 21
-180.3840187666
 31
0.0
  0
LINE
  5
205
330
17D
100
AcDbEntity
  8
0
  6
Continuous
 62
     7
370
    25
100
AcDbLine
 10
68.4479364189
 20
-178.9553045709
 30
0.0
 11
68.4479364189
 21
-241.5023307613
 31
0.0
  0
LINE
  5
206
330
17D
100
AcDbEntity
  8
0
  6
Continuous
 62
     7
370
    25
100
AcDbLine
 10
68.4479364189
 20
-241.5023307613
 30
0.0
 11
65.9730626847
 21
-242.931044957
 31
0.0
  0
LINE
  5
207
330
17D
100
AcDbEntity
  8
0
  6
Continuous
 62
     7
370
    25
100
AcDbLine
 10
44.7598592491
 20
-242.931044957
 30
0.0
 11
-327.8854144362
 21
-27.8075074917
 31
0.0
  0
LINE
  5
208
330
17D
100
AcDbEntity
  8
0
  6
Continuous
 62
     7
370
    25
100
AcDbLine
 10
-327.8854144362
 20
34.7395186987
 30
0.0
 11
-327.8854144362
 21
-27.8075074917
 31
0.0
  0
LINE
  5
209
330
17D
100
AcDbEntity
  8
0
  6
Continuous
 62
     7
370
    25
100
AcDbLine
 10
89.2368757857
 20
-231.05237328
 30
0.0
 11
89.2368757857
 21
-235.9516181514
 31
0.0
  0
LINE
  5
20A
330
17D
100
AcDbEntity
  8
0
  6
Continuous
 62
     7
370
    25
100
AcDbLine
 10
124.5922148451
 20
-210.6421704845
 30
0.0
 11
124.5922148451
 21
-215.5414153558
 31
0.0
  0
LINE
  5
20B
330
17D
100
AcDbEntity
  8
0
  6
Continuous
 62
     7
370
    25
100
AcDbLine
 10
89.2368757857
 20
-235.9516181514
 30
0.0
 11
124.5922148451
 21
-215.5414153558
 31
0.0
  0
LINE
  5
20C
330
17D
100
AcDbEntity
  8
0
  6
Continuous
 62
     7
370
    25
100
AcDbLine
 10
84.9935454941
 20
-233.5019957157
 30
0.0
 11
89.2368757857
 21
-235.9516181514
 31
0.0
  0
LINE
  5
20D
330
17D
100
AcDbEntity
  8
0
  6
Continuous
 62
     7
370
    25
100
AcDbLine
 10
-67.0319988453
 20
407.7996698849
 30
0.0
 11
-77.6403245743
 21
401.6756137957
 31
0.0
  0
LINE
  5
20E
330
17D
100
AcDbEntity
  8
0
  6
Continuous
 62
     7
370
    25
100
AcDbLine
 10
69.4378859125
 20
331.8727202349
 30
0.0
 11
55.0308185295
 21
340.1897432023
 31
0.0
  0
LINE
  5
20F
330
17D
100
AcDbEntity
  8
0
  6
Continuous
 62
     7
370
    25
100
AcDbLine
 10
69.4378859125
 20
331.8727202349
 30
0.0
 11
66.9630121784
 21
330.4440060392
 31
0.0
  0
LINE
  5
210
330
17D
100
AcDbEntity
  8
0
  6
Continuous
 62
     7
370
    25
100
AcDbLine
 10
45.7498087428
 20
330.4440060392
 30
0.0
 11
-77.6403245743
 21
401.6756137957
 31
0.0
  0
LINE
  5
211
330
17D
100
AcDbEntity
  8
0
  6
Continuous
 62
     7
370
    25
100
AcDbLine
 10
45.7498087428
 20
-175.81129733
 30
0.0
 11
45.7498087428
 21
330.4440060392
 31
0.0
  0
LINE
  5
212
330
17D
100
AcDbEntity
  8
0
  6
Continuous
 62
     7
370
    25
100
AcDbLine
 10
66.9630121784
 20
330.4440060392
 30
0.0
 11
66.9630121784
 21
-175.81129733
 31
0.0
  0
LINE
  5
213
330
17D
100
AcDbEntity
  8
0
  6
Continuous
 62
     7
370
    25
100
AcDbLine
 10
-139.1586145375
 20
422.6549402084
 30
0.0
 11
-139.1586145375
 21
-69.0659367092
 31
0.0
  0
LINE
  5
214
330
17D
100
AcDbEntity
  8
0
  6
Continuous
 62
     7
370
    25
100
AcDbLine
 10
-139.1586145375
 20
-69.0659367092
 30
0.0
 11
45.7498087428
 21
-175.81129733
 31
0.0
  0
LINE
  5
215
330
17D
100
AcDbEntity
  8
0
  6
Continuous
 62
     7
370
    25
100
AcDbLine
 10
69.4378859125
 20
-174.3825831343
 30
0.0
 11
66.9630121784
 21
-175.81129733
 31
0.0
  0
LINE
  5
216
330
17D
100
AcDbEntity
  8
0
  6
Continuous
 62
     7
370
    25
100
AcDbLine
 10
-135.1281058847
 20
424.9817033271
 30
0.0
 11
-139.1586145375
 21
422.6549402084
 31
0.0
  0
LINE
  5
217
330
17D
100
AcDbEntity
  8
0
  6
Continuous
 62
     7
370
    25
100
AcDbLine
 10
-126.0771390856
 20
424.3276213972
 30
0.0
 11
-129.950497523
 21
422.0915791668
 31
0.0
  0
LINE
  5
218
330
17D
100
AcDbEntity
  8
0
  6
Continuous
 62
     7
370
    25
100
AcDbLine
 10
-142.9769911559
 20
424.8592421104
 30
0.0
 11
-142.9769911559
 21
-66.8616348072
 31
0.0
  0
LINE
  5
219
330
17D
100
AcDbEntity
  8
0
  6
Continuous
 62
     7
370
    25
100
AcDbLine
 10
-142.9769911559
 20
-66.8616348072
 30
0.0
 11
-327.8854144362
 21
39.8837258136
 31
0.0
  0
LINE
  5
21A
330
17D
100
AcDbEntity
  8
0
  6
Continuous
 62
     7
370
    25
100
AcDbLine
 10
-327.8854144362
 20
546.1390291827
 30
0.0
 11
-327.8854144362
 21
39.8837258136
 31
0.0
  0
LINE
  5
21B
330
17D
100
AcDbEntity
  8
0
  6
Continuous
 62
     7
370
    25
100
AcDbLine
 10
-327.8854144362
 20
546.1390291827
 30
0.0
 11
-204.4952811191
 21
474.9074214262
 31
0.0
  0
LINE
  5
21C
330
17D
100
AcDbEntity
  8
0
  6
Continuous
 62
     7
370
    25
100
AcDbLine
 10
-193.8869553902
 20
481.0314775154
 30
0.0
 11
-204.4952811191
 21
474.9074214262
 31
0.0
  0
LINE
  5
21D
330
17D
100
AcDbEntity
  8
0
  6
Continuous
 62
     7
370
    25
100
AcDbLine
 10
-138.9464825032
 20
427.1860052291
 30
0.0
 11
-142.9769911559
 21
424.8592421104
 31
0.0
  0
LINE
  5
21E
330
17D
100
AcDbEntity
  8
0
  6
Continuous
 62
     7
370
    25
100
AcDbLine
 10
-129.895515704
 20
426.5319232991
 30
0.0
 11
-133.8492646188
 21
424.2494726339
 31
0.0
  0
LINE
  5
21F
330
17D
100
AcDbEntity
  8
0
  6
Continuous
 62
     7
370
    25
100
AcDbLine
 10
-129.895515704
 20
426.5319232991
 30
0.0
 11
-129.895515704
 21
422.1233194953
 31
0.0
  0
LINE
  5
220
330
17D
100
AcDbEntity
  8
0
  6
Continuous
 62
     7
370
    25
100
AcDbLine
 10
-139.1586145375
 20
-64.6573329053
 30
0.0
 11
-142.9769911559
 21
-66.8616348072
 31
0.0
  0
LINE
  5
221
330
17D
100
AcDbEntity
  8
0
  6
Continuous
 62
     7
370
    25
100
AcDbLine
 10
-138.9464825032
 20
422.7774014252
 30
0.0
 11
-138.9464825032
 21
427.1860052291
 31
0.0
  0
LINE
  5
222
330
17D
100
AcDbEntity
  8
0
  6
Continuous
 62
     7
370
    25
100
AcDbLine
 10
-327.8375532044
 20
558.4127805611
 30
0.0
 11
-327.8854144362
 21
558.3851508601
 31
0.0
  0
LINE
  5
223
330
17D
100
AcDbEntity
  8
0
  6
Continuous
 62
     7
370
    25
100
AcDbLine
 10
66.9630121784
 20
405.2391444079
 30
0.0
 11
66.9630121784
 21
342.6921182175
 31
0.0
  0
LINE
  5
224
330
17D
100
AcDbEntity
  8
0
  6
Continuous
 62
     7
370
    25
100
AcDbLine
 10
45.7498087428
 20
342.6921182175
 30
0.0
 11
45.7498087428
 21
405.2391444079
 31
0.0
  0
LINE
  5
225
330
17D
100
AcDbEntity
  8
0
  6
Continuous
 62
     7
370
    25
100
AcDbLine
 10
-324.4205912084
 20
634.0375177462
 30
0.0
 11
-326.8954649425
 21
632.6088035505
 31
0.0
  0
LINE
  5
226
330
17D
100
AcDbEntity
  8
0
  6
Continuous
 62
     7
370
    25
100
AcDbLine
 10
-324.4205912084
 20
634.0375177462
 30
0.0
 11
69.4378859125
 21
406.6678586036
 31
0.0
  0
LINE
  5
227
330
17D
100
AcDbEntity
  8
0
  6
Continuous
 62
     7
370
    25
100
AcDbLine
 10
69.4378859125
 20
406.6678586036
 30
0.0
 11
66.9630121784
 21
405.2391444079
 31
0.0
  0
LINE
  5
228
330
17D
100
AcDbEntity
  8
0
  6
Continuous
 62
     7
370
    25
100
AcDbLine
 10
-326.8954649425
 20
620.3626818732
 30
0.0
 11
45.7498087428
 21
405.2391444079
 31
0.0
  0
LINE
  5
229
330
17D
100
AcDbEntity
  8
0
  6
Continuous
 62
     7
370
    25
100
AcDbLine
 10
69.4378859125
 20
344.1208324132
 30
0.0
 11
66.9630121784
 21
342.6921182175
 31
0.0
  0
LINE
  5
22A
330
17D
100
AcDbEntity
  8
0
  6
Continuous
 62
     7
370
    25
100
AcDbLine
 10
-326.8954649425
 20
620.3626818732
 30
0.0
 11
-326.8954649425
 21
557.8156556828
 31
0.0
  0
LINE
  5
22B
330
17D
100
AcDbEntity
  8
0
  6
Continuous
 62
     7
370
    25
100
AcDbLine
 10
45.7498087428
 20
342.6921182175
 30
0.0
 11
-326.8954649425
 21
557.8156556828
 31
0.0
  0
LINE
  5
22C
330
17D
100
AcDbEntity
  8
0
  6
Continuous
 62
     7
370
    25
100
AcDbLine
 10
130.0092379472
 20
460.5762875322
 30
0.0
 11
-68.6600684532
 21
575.2656368857
 31
0.0
  0
LINE
  5
22D
330
17D
100
AcDbEntity
  8
0
  6
Continuous
 62
     7
370
    25
100
AcDbLine
 10
-68.6600684532
 20
575.2656368857
 30
0.0
 11
-55.7907250356
 21
582.6949507033
 31
0.0
  0
LINE
  5
22E
330
17D
100
AcDbEntity
  8
0
  6
Continuous
 62
     7
370
    25
100
AcDbLine
 10
142.8785813648
 20
468.0056013498
 30
0.0
 11
-55.7907250356
 21
582.6949507033
 31
0.0
  0
LINE
  5
22F
330
17D
100
AcDbEntity
  8
0
  6
Continuous
 62
     7
370
    25
100
AcDbLine
 10
-68.6600684532
 20
526.2731881726
 30
0.0
 11
87.5759350312
 21
436.0800631756
 31
0.0
  0
LINE
  5
230
330
17D
100
AcDbEntity
  8
0
  6
Continuous
 62
     7
370
    25
100
AcDbLine
 10
-68.6600684532
 20
575.2656368857
 30
0.0
 11
-68.6600684532
 21
526.2731881726
 31
0.0
  0
ARC
  5
231
330
17D
100
AcDbEntity
  8
0
  6
Continuous
 62
     7
370
    25
100
AcDbCircle
 10
-40.4390933836
 20
709.2934588504
 30
0.0
 40
2.191450343074827
100
AcDbArc
 50
305.3559616095
 51
354.6494149232
  0
ARC
  5
232
330
17D
100
AcDbEntity
  8
0
  6
Continuous
 62
     7
370
    25
100
AcDbCircle
 10
-40.4390933837
 20
683.1641528701
 30
0.0
 40
2.191450343129163
100
AcDbArc
 50
305.3559616133
 51
354.6494149194
  0
ARC
  5
233
330
17D
100
AcDbEntity
  8
0
  6
Continuous
 62
     7
370
    25
100
AcDbCircle
 10
55.3664609669
 20
-222.6502122169
 30
0.0
 40
22.88694336589431
100
AcDbArc
 50
242.3910402158
 51
297.6089597842
  0
ARC
  5
234
330
17D
100
AcDbEntity
  8
0
  6
Continuous
 62
     7
370
    25
100
AcDbCircle
 10
55.3664609669
 20
-160.1031860264
 30
0.0
 40
22.88694336589489
100
AcDbArc
 50
242.3910402158
 51
297.6089597842
  0
ARC
  5
235
330
17D
100
AcDbEntity
  8
0
  6
Continuous
 62
     7
370
    25
100
AcDbCircle
 10
-324.8357084006
 20
-20.98159385
 30
0.0
 40
7.476215884244962
100
AcDbArc
 50
185.3944478058
 51
245.9256931518
  0
ARC
  5
236
330
17D
100
AcDbEntity
  8
0
  6
Continuous
 62
     7
370
    25
100
AcDbCircle
 10
56.3564104606
 20
350.7248387793
 30
0.0
 40
22.88694336589475
100
AcDbArc
 50
242.3910402158
 51
297.6089597842
  0
ARC
  5
237
330
17D
100
AcDbEntity
  8
0
  6
Continuous
 62
     7
370
    25
100
AcDbCircle
 10
56.3564104606
 20
-155.5304645898
 30
0.0
 40
22.88694336589494
100
AcDbArc
 50
242.3910402158
 51
297.6089597842
  0
ARC
  5
238
330
17D
100
AcDbEntity
  8
0
  6
Continuous
 62
     7
370
    25
100
AcDbCircle
 10
-4.3530424419
 20
658.0858761022
 30
0.0
 40
271.3139545991473
100
AcDbArc
 50
222.4660396121
 51
239.273832623
  0
ARC
  5
239
330
17D
100
AcDbEntity
  8
0
  6
Continuous
 62
     7
370
    25
100
AcDbCircle
 10
-0.3225337891
 20
660.4126392209
 30
0.0
 40
271.3139545991448
100
AcDbArc
 50
222.4660396121
 51
239.273832623
  0
ARC
  5
23A
330
17D
100
AcDbEntity
  8
0
  6
Continuous
 62
     7
370
    25
100
AcDbCircle
 10
-324.8357084006
 20
46.7096394553
 30
0.0
 40
7.476215884245022
100
AcDbArc
 50
185.3944478058
 51
245.9256931518
  0
ARC
  5
23B
330
17D
100
AcDbEntity
  8
0
  6
Continuous
 62
     7
370
    25
100
AcDbCircle
 10
56.3564104606
 20
362.9729509576
 30
0.0
 40
22.88694336589501
100
AcDbArc
 50
242.3910402158
 51
297.6089597842
  0
ARC
  5
23C
330
17D
100
AcDbEntity
  8
0
  6
Continuous
 62
     7
370
    25
100
AcDbCircle
 10
56.3564104606
 20
425.5199771481
 30
0.0
 40
22.88694336589498
100
AcDbArc
 50
242.3910402158
 51
297.6089597842
  0
ARC
  5
23D
330
17D
100
AcDbEntity
  8
0
  6
Continuous
 62
     7
370
    25
100
AcDbCircle
 10
-323.845758907
 20
564.6415693245
 30
0.0
 40
7.476215884245143
100
AcDbArc
 50
185.3944478058
 51
245.9256931518
  0
VIEWPORT
  5
244
330
17D
100
AcDbEntity
  8
0
100
AcDbViewport
 10
0.0
 20
0.0
 30
0.0
 40
205.6
 41
156.0
 68
     1
 69
     1
 12
0.0
 22
330.1
 13
0.0
 23
0.0
 14
10.0
 24
10.0
 15
10.0
 25
10.0
 16
0.0
 26
0.0
 36
1.0
 17
0.0
 27
0.0
 37
0.0
 42
50.0
 43
0.0
 44
0.0
 45
822.12
 50
0.0
 51
0.0
 72
   100
 90
   557152
  1

281
     0
 71
     1
 74
     0
110
0.0
120
0.0
130
0.0
111
1.0
121
0.0
131
0.0
112
0.0
122
1.0
132
0.0
 79
     0
146
0.0
  0
ENDBLK
  5
180
330
17D
100
AcDbEntity
  8
0
100
AcDbBlockEnd
  0
ENDSEC
  0
SECTION
  2
ENTITIES
  0
LINE
  5
B7
330
1F
100
AcDbEntity
  8
0
  6
Continuous
 62
     7
370
    25
100
AcDbLine
 10
261.0
 20
-66.9
 30
0.0
 11
279.2
 21
-66.9
 31
0.0
  0
LINE
  5
B8
330
1F
100
AcDbEntity
  8
0
  6
Continuous
 62
     7
370
    25
100
AcDbLine
 10
261.0
 20
733.1
 30
0.0
 11
261.0
 21
728.1
 31
0.0
  0
LINE
  5
B9
330
1F
100
AcDbEntity
  8
0
  6
Continuous
 62
     7
370
    25
100
AcDbLine
 10
261.0
 20
651.5
 30
0.0
 11
261.0
 21
636.5
 31
0.0
  0
LINE
  5
BA
330
1F
100
AcDbEntity
  8
0
  6
Continuous
 62
     7
370
    25
100
AcDbLine
 10
261.0
 20
16.5
 30
0.0
 11
261.0
 21
10.2
 31
0.0
  0
LINE
  5
BB
330
1F
100
AcDbEntity
  8
0
  6
Continuous
 62
     7
370
    25
100
AcDbLine
 10
261.0
 20
-66.4
 30
0.0
 11
261.0
 21
-72.9
 31
0.0
  0
LINE
  5
BC
330
1F
100
AcDbEntity
  8
0
  6
Continuous
 62
     7
370
    25
100
AcDbLine
 10
279.2
 20
733.1
 30
0.0
 11
279.2
 21
-72.9
 31
0.0
  0
LINE
  5
BD
330
1F
100
AcDbEntity
  8
0
  6
Continuous
 62
     7
370
    25
100
AcDbLine
 10
261.0
 20
733.1
 30
0.0
 11
279.2
 21
733.1
 31
0.0
  0
LINE
  5
BE
330
1F
100
AcDbEntity
  8
0
  6
Continuous
 62
     7
370
    25
100
AcDbLine
 10
-261.0
 20
-66.9
 30
0.0
 11
-279.2
 21
-66.9
 31
0.0
  0
LINE
  5
BF
330
1F
100
AcDbEntity
  8
0
  6
Continuous
 62
     7
370
    25
100
AcDbLine
 10
-279.2
 20
-72.9
 30
0.0
 11
-279.2
 21
733.1
 31
0.0
  0
LINE
  5
C0
330
1F
100
AcDbEntity
  8
0
  6
Continuous
 62
     7
370
    25
100
AcDbLine
 10
-261.0
 20
733.1
 30
0.0
 11
-279.2
 21
733.1
 31
0.0
  0
LINE
  5
C1
330
1F
100
AcDbEntity
  8
0
  6
Continuous
 62
     7
370
    25
100
AcDbLine
 10
-261.0
 20
733.1
 30
0.0
 11
-261.0
 21
728.1
 31
0.0
  0
LINE
  5
C2
330
1F
100
AcDbEntity
  8
0
  6
Continuous
 62
     7
370
    25
100
AcDbLine
 10
-261.0
 20
651.5
 30
0.0
 11
-261.0
 21
636.5
 31
0.0
  0
LINE
  5
C3
330
1F
100
AcDbEntity
  8
0
  6
Continuous
 62
     7
370
    25
100
AcDbLine
 10
-261.0
 20
16.5
 30
0.0
 11
-261.0
 21
10.2
 31
0.0
  0
LINE
  5
C4
330
1F
100
AcDbEntity
  8
0
  6
Continuous
 62
     7
370
    25
100
AcDbLine
 10
-261.0
 20
-66.4
 30
0.0
 11
-261.0
 21
-72.9
 31
0.0
  0
LINE
  5
C5
330
1F
100
AcDbEntity
  8
0
  6
Continuous
 62
     7
370
    25
100
AcDbLine
 10
262.8
 20
-66.4
 30
0.0
 11
262.8
 21
10.2
 31
0.0
  0
LINE
  5
C6
330
1F
100
AcDbEntity
  8
0
  6
Continuous
 62
     7
370
    25
100
AcDbLine
 10
277.8
 20
-66.4
 30
0.0
 11
-279.2
 21
-66.4
 31
0.0
  0
LINE
  5
C7
330
1F
100
AcDbEntity
  8
0
  6
Continuous
 62
     7
370
    25
100
AcDbLine
 10
-264.2
 20
10.2
 30
0.0
 11
-264.2
 21
-66.4
 31
0.0
  0
LINE
  5
C8
330
1F
100
AcDbEntity
  8
0
  6
Continuous
 62
     7
370
    25
100
AcDbLine
 10
-279.2
 20
10.2
 30
0.0
 11
277.8
 21
10.2
 31
0.0
  0
LINE
  5
C9
330
1F
100
AcDbEntity
  8
0
  6
Continuous
 62
     7
370
    25
100
AcDbLine
 10
277.8
 20
10.2
 30
0.0
 11
277.8
 21
-66.4
 31
0.0
  0
LINE
  5
CA
330
1F
100
AcDbEntity
  8
0
  6
Continuous
 62
     7
370
    25
100
AcDbLine
 10
261.0
 20
-72.9
 30
0.0
 11
279.2
 21
-72.9
 31
0.0
  0
LINE
  5
CB
330
1F
100
AcDbEntity
  8
0
  6
Continuous
 62
     7
370
    25
100
AcDbLine
 10
-2.7
 20
24.2
 30
0.0
 11
2.7
 21
24.2
 31
0.0
  0
LINE
  5
CC
330
1F
100
AcDbEntity
  8
0
  6
Continuous
 62
     7
370
    25
100
AcDbLine
 10
264.2
 20
16.5
 30
0.0
 11
264.2
 21
636.5
 31
0.0
  0
LINE
  5
CD
330
1F
100
AcDbEntity
  8
0
  6
Continuous
 62
     7
370
    25
100
AcDbLine
 10
279.2
 20
636.5
 30
0.0
 11
89.7
 21
636.5
 31
0.0
  0
LINE
  5
CE
330
1F
100
AcDbEntity
  8
0
  6
Continuous
 62
     7
370
    25
100
AcDbLine
 10
2.7
 20
16.5
 30
0.0
 11
279.2
 21
16.5
 31
0.0
  0
LINE
  5
CF
330
1F
100
AcDbEntity
  8
0
  6
Continuous
 62
     7
370
    25
100
AcDbLine
 10
2.7
 20
618.7
 30
0.0
 11
2.7
 21
16.5
 31
0.0
  0
LINE
  5
D0
330
1F
100
AcDbEntity
  8
0
  6
Continuous
 62
     7
370
    25
100
AcDbLine
 10
-279.2
 20
636.5
 30
0.0
 11
-89.7
 21
636.5
 31
0.0
  0
LINE
  5
D1
330
1F
100
AcDbEntity
  8
0
  6
Continuous
 62
     7
370
    25
100
AcDbLine
 10
-264.2
 20
636.5
 30
0.0
 11
-264.2
 21
16.5
 31
0.0
  0
LINE
  5
D2
330
1F
100
AcDbEntity
  8
0
  6
Continuous
 62
     7
370
    25
100
AcDbLine
 10
-2.7
 20
16.5
 30
0.0
 11
-279.2
 21
16.5
 31
0.0
  0
LINE
  5
D3
330
1F
100
AcDbEntity
  8
0
  6
Continuous
 62
     7
370
    25
100
AcDbLine
 10
-2.7
 20
618.7
 30
0.0
 11
-2.7
 21
16.5
 31
0.0
  0
LINE
  5
D4
330
1F
100
AcDbEntity
  8
0
  6
Continuous
 62
     7
370
    25
100
AcDbLine
 10
-279.2
 20
-72.9
 30
0.0
 11
-261.0
 21
-72.9
 31
0.0
  0
LINE
  5
D5
330
1F
100
AcDbEntity
  8
0
  6
Continuous
 62
     7
370
    25
100
AcDbLine
 10
-2.7
 20
342.4
 30
0.0
 11
2.7
 21
342.4
 31
0.0
  0
LINE
  5
D6
330
1F
100
AcDbEntity
  8
0
  6
Continuous
 62
     7
370
    25
100
AcDbLine
 10
-2.7
 20
324.2
 30
0.0
 11
2.7
 21
324.2
 31
0.0
  0
LINE
  5
D7
330
1F
100
AcDbEntity
  8
0
  6
Continuous
 62
     7
370
    25
100
AcDbLine
 10
264.2
 20
651.5
 30
0.0
 11
264.2
 21
728.1
 31
0.0
  0
LINE
  5
D8
330
1F
100
AcDbEntity
  8
0
  6
Continuous
 62
     7
370
    25
100
AcDbLine
 10
-277.8
 20
651.5
 30
0.0
 11
-277.8
 21
728.1
 31
0.0
  0
LINE
  5
D9
330
1F
100
AcDbEntity
  8
0
  6
Continuous
 62
     7
370
    25
100
AcDbLine
 10
-277.8
 20
728.1
 30
0.0
 11
279.2
 21
728.1
 31
0.0
  0
LINE
  5
DA
330
1F
100
AcDbEntity
  8
0
  6
Continuous
 62
     7
370
    25
100
AcDbLine
 10
-262.8
 20
728.1
 30
0.0
 11
-262.8
 21
651.5
 31
0.0
  0
LINE
  5
DB
330
1F
100
AcDbEntity
  8
0
  6
Continuous
 62
     7
370
    25
100
AcDbLine
 10
279.2
 20
651.5
 30
0.0
 11
-277.8
 21
651.5
 31
0.0
  0
LINE
  5
DC
330
1F
100
AcDbEntity
  8
0
  6
Continuous
 62
     7
370
    25
100
AcDbLine
 10
-2.7
 20
602.6
 30
0.0
 11
2.7
 21
602.6
 31
0.0
  0
LINE
  5
DD
330
1F
100
AcDbEntity
  8
0
  6
Continuous
 62
     7
370
    25
100
AcDbLine
 10
2.7
 20
492.1
 30
0.0
 11
-2.7
 21
492.1
 31
0.0
  0
LINE
  5
DE
330
1F
100
AcDbEntity
  8
0
  6
Continuous
 62
     7
370
    25
100
AcDbLine
 10
-2.7
 20
432.1
 30
0.0
 11
2.7
 21
432.1
 31
0.0
  0
ARC
  5
DF
330
1F
100
AcDbEntity
  8
0
  6
Continuous
 62
     7
370
    25
100
AcDbCircle
 10
2.7
 20
840.2123595506
 30
0.0
 40
221.5123595505605
100
AcDbArc
 50
270.0
 51
293.1260081186
  0
ARC
  5
E0
330
1F
100
AcDbEntity
  8
0
  6
Continuous
 62
     7
370
    25
100
AcDbCircle
 10
-2.7
 20
840.2123595506
 30
0.0
 40
221.5123595505609
100
AcDbArc
 50
246.8739918814
 51
270.0
  0
CIRCLE
  5
F0
330
1B
100
AcDbEntity
 67
     1
  8
0
  6
Continuous
 62
     7
370
    25
100
AcDbCircle
 10
249.0
 20
15.1
 30
0.0
 40
0.9499999999999886
  0
CIRCLE
  5
F1
330
1B
100
AcDbEntity
 67
     1
  8
0
  6
Continuous
 62
     7
370
    25
100
AcDbCircle
 10
-249.0
 20
15.1
 30
0.0
 40
0.9499999999999886
  0
CIRCLE
  5
F2
330
1B
100
AcDbEntity
 67
     1
  8
0
  6
Continuous
 62
     7
370
    25
100
AcDbCircle
 10
-249.0
 20
441.9
 30
0.0
 40
0.9499999999999886
  0
CIRCLE
  5
F3
330
1B
100
AcDbEntity
 67
     1
  8
0
  6
Continuous
 62
     7
370
    25
100
AcDbCircle
 10
-104.0
 20
441.9
 30
0.0
 40
0.9499999999999744
  0
CIRCLE
  5
F5
330
1B
100
AcDbEntity
 67
     1
  8
0
  6
Continuous
 62
     7
370
    25
100
AcDbCircle
 10
104.0
 20
441.9
 30
0.0
 40
0.9499999999999318
  0
CIRCLE
  5
F7
330
1B
100
AcDbEntity
 67
     1
  8
0
  6
Continuous
 62
     7
370
    25
100
AcDbCircle
 10
249.0
 20
441.9
 30
0.0
 40
0.950000000000017
  0
CIRCLE
  5
F8
330
1B
100
AcDbEntity
 67
     1
  8
0
  6
Continuous
 62
     7
370
    25
100
AcDbCircle
 10
-104.0
 20
15.1
 30
0.0
 40
0.9500000000000028
  0
CIRCLE
  5
F9
330
1B
100
AcDbEntity
 67
     1
  8
0
  6
Continuous
 62
     7
370
    25
100
AcDbCircle
 10
104.0
 20
15.1
 30
0.0
 40
0.9500000000000028
  0
CIRCLE
  5
FB
330
1B
100
AcDbEntity
 67
     1
  8
0
  6
Continuous
 62
     7
370
    25
100
AcDbCircle
 10
-247.7
 20
510.5
 30
0.0
 40
0.9499999999999602
  0
CIRCLE
  5
FE
330
1B
100
AcDbEntity
 67
     1
  8
0
  6
Continuous
 62
     7
370
    25
100
AcDbCircle
 10
-247.7
 20
562.5
 30
0.0
 40
0.9500000000000455
  0
CIRCLE
  5
100
330
1B
100
AcDbEntity
 67
     1
  8
0
  6
Continuous
 62
     7
370
    25
100
AcDbCircle
 10
247.7
 20
510.5
 30
0.0
 40
0.9499999999999886
  0
CIRCLE
  5
103
330
1B
100
AcDbEntity
 67
     1
  8
0
  6
Continuous
 62
     7
370
    25
100
AcDbCircle
 10
247.7
 20
562.5
 30
0.0
 40
0.950000000000017
  0
LINE
  5
108
330
1B
100
AcDbEntity
 67
     1
  8
0
  6
Continuous
 62
     7
370
    25
100
AcDbLine
 10
-261.0
 20
733.1
 30
0.0
 11
-279.2
 21
733.1
 31
0.0
  0
LINE
  5
109
330
1B
100
AcDbEntity
 67
     1
  8
0
  6
Continuous
 62
     7
370
    25
100
AcDbLine
 10
-261.0
 20
-72.9
 30
0.0
 11
-261.0
 21
733.1
 31
0.0
  0
LINE
  5
10A
330
1B
100
AcDbEntity
 67
     1
  8
0
  6
Continuous
 62
     7
370
    25
100
AcDbLine
 10
-261.0
 20
-66.9
 30
0.0
 11
-279.2
 21
-66.9
 31
0.0
  0
LINE
  5
10B
330
1B
100
AcDbEntity
 67
     1
  8
0
  6
Continuous
 62
     7
370
    25
100
AcDbLine
 10
-279.2
 20
-72.9
 30
0.0
 11
-279.2
 21
733.1
 31
0.0
  0
LINE
  5
10C
330
1B
100
AcDbEntity
 67
     1
  8
0
  6
Continuous
 62
     7
370
    25
100
AcDbLine
 10
261.0
 20
-72.9
 30
0.0
 11
261.0
 21
733.1
 31
0.0
  0
LINE
  5
10D
330
1B
100
AcDbEntity
 67
     1
  8
0
  6
Continuous
 62
     7
370
    25
100
AcDbLine
 10
279.2
 20
-72.9
 30
0.0
 11
279.2
 21
733.1
 31
0.0
  0
LINE
  5
10E
330
1B
100
AcDbEntity
 67
     1
  8
0
  6
Continuous
 62
     7
370
    25
100
AcDbLine
 10
261.0
 20
-72.9
 30
0.0
 11
279.2
 21
-72.9
 31
0.0
  0
LINE
  5
10F
330
1B
100
AcDbEntity
 67
     1
  8
0
  6
Continuous
 62
     7
370
    25
100
AcDbLine
 10
-279.2
 20
-72.9
 30
0.0
 11
-261.0
 21
-72.9
 31
0.0
  0
LINE
  5
110
330
1B
100
AcDbEntity
 67
     1
  8
0
  6
Continuous
 62
     7
370
    25
100
AcDbLine
 10
261.0
 20
-66.9
 30
0.0
 11
279.2
 21
-66.9
 31
0.0
  0
LINE
  5
111
330
1B
100
AcDbEntity
 67
     1
  8
0
  6
Continuous
 62
     7
370
    25
100
AcDbLine
 10
261.0
 20
733.1
 30
0.0
 11
279.2
 21
733.1
 31
0.0
  0
LINE
  5
112
330
1B
100
AcDbEntity
 67
     1
  8
0
  6
Continuous
 62
     7
370
    25
100
AcDbLine
 10
-261.0
 20
-66.4
 30
0.0
 11
261.0
 21
-66.4
 31
0.0
  0
LINE
  5
113
330
1B
100
AcDbEntity
 67
     1
  8
0
  6
Continuous
 62
     7
370
    25
100
AcDbLine
 10
261.0
 20
6.0
 30
0.0
 11
-261.0
 21
6.0
 31
0.0
  0
LINE
  5
114
330
1B
100
AcDbEntity
 67
     1
  8
0
  6
Continuous
 62
     7
370
    25
100
AcDbLine
 10
-261.0
 20
451.0
 30
0.0
 11
261.0
 21
451.0
 31
0.0
  0
LINE
  5
115
330
1B
100
AcDbEntity
 67
     1
  8
0
  6
Continuous
 62
     7
370
    25
100
AcDbLine
 10
-2.7
 20
602.6
 30
0.0
 11
-2.7
 21
492.1
 31
0.0
  0
LINE
  5
116
330
1B
100
AcDbEntity
 67
     1
  8
0
  6
Continuous
 62
     7
370
    25
100
AcDbLine
 10
2.7
 20
602.6
 30
0.0
 11
2.7
 21
492.1
 31
0.0
  0
LINE
  5
117
330
1B
100
AcDbEntity
 67
     1
  8
0
  6
Continuous
 62
     7
370
    25
100
AcDbLine
 10
261.0
 20
728.1
 30
0.0
 11
-261.0
 21
728.1
 31
0.0
  0
LINE
  5
118
330
1B
100
AcDbEntity
 67
     1
  8
0
  6
Continuous
 62
     7
370
    25
100
AcDbLine
 10
-261.0
 20
662.6
 30
0.0
 11
261.0
 21
662.6
 31
0.0
  0
LINE
  5
119
330
1B
100
AcDbEntity
 67
     1
  8
0
  6
Continuous
 62
     7
370
    25
100
AcDbLine
 10
261.0
 20
602.6
 30
0.0
 11
-261.0
 21
602.6
 31
0.0
  0
LINE
  5
11A
330
1B
100
AcDbEntity
 67
     1
  8
0
  6
Continuous
 62
     7
370
    25
100
AcDbLine
 10
-261.0
 20
492.1
 30
0.0
 11
261.0
 21
492.1
 31
0.0
  0
ARC
  5
11B
330
1B
100
AcDbEntity
 67
     1
  8
0
  6
Continuous
 62
     7
370
    25
100
AcDbCircle
 10
-255.5
 20
536.5
 30
0.0
 40
17.50000000000004
100
AcDbArc
 50
251.6823015888
 51
108.3176984112
  0
ARC
  5
11C
330
1B
100
AcDbEntity
 67
     1
  8
0
  6
Continuous
 62
     7
370
    25
100
AcDbCircle
 10
255.5
 20
536.5
 30
0.0
 40
17.50000000000011
100
AcDbArc
 50
71.6823015888
 51
288.3176984112
  0
VIEWPORT
  5
23E
330
1B
100
AcDbEntity
 67
     1
  8
0
100
AcDbViewport
 10
0.0
 20
0.0
 30
0.0
 40
205.6
 41
156.0
 68
     1
 69
     1
 12
0.0
 22
330.1
 13
0.0
 23
0.0
 14
10.0
 24
10.0
 15
10.0
 25
10.0
 16
0.0
 26
0.0
 36
1.0
 17
0.0
 27
0.0
 37
0.0
 42
50.0
 43
0.0
 44
0.0
 45
822.12
 50
0.0
 51
0.0
 72
   100
 90
   557152
  1

281
     0
 71
     1
 74
     0
110
0.0
120
0.0
130
0.0
111
1.0
121
0.0
131
0.0
112
0.0
122
1.0
132
0.0
 79
     0
146
0.0
  0
ENDSEC
  0
SECTION
  2
OBJECTS
  0
DICTIONARY
  5
C
330
0
100
AcDbDictionary
281
     1
  3
ACAD_GROUP
350
D
  3
ACAD_LAYOUT
350
1A
  3
ACAD_MLINESTYLE
350
17
  3
ACAD_PLOTSETTINGS
350
19
  3
ACAD_PLOTSTYLENAME
350
E
  3
ACAD_SCALELIST
350
47
  0
DICTIONARY
  5
D
102
{ACAD_REACTORS
330
C
102
}
330
C
100
AcDbDictionary
281
     1
  0
DICTIONARY
  5
1A
102
{ACAD_REACTORS
330
C
102
}
330
C
100
AcDbDictionary
281
     1
  3
_Back
350
1E
  3
_Isometric
350
17E
  3
_Left
350
26
  3
_Top
350
154
  3
Model
350
22
  0
DICTIONARY
  5
17
102
{ACAD_REACTORS
330
C
102
}
330
C
100
AcDbDictionary
281
     1
  3
Standard
350
18
  0
DICTIONARY
  5
19
102
{ACAD_REACTORS
330
C
102
}
330
C
100
AcDbDictionary
281
     1
  0
ACDBDICTIONARYWDFLT
  5
E
102
{ACAD_REACTORS
330
C
102
}
330
C
100
AcDbDictionary
281
     1
  3
Normal
350
F
100
AcDbDictionaryWithDefault
340
F
  0
DICTIONARY
  5
47
102
{ACAD_REACTORS
330
C
102
}
330
C
100
AcDbDictionary
281
     1
  3
A0
350
48
  3
A1
350
49
  3
A2
350
4A
  3
A3
350
4B
  3
A4
350
4C
  3
A5
350
4D
  3
A6
350
4E
  3
A7
350
4F
  3
A8
350
50
  3
A9
350
51
  3
B0
350
52
  3
B1
350
53
  3
B2
350
54
  3
B3
350
55
  3
B4
350
56
  3
B5
350
57
  3
B6
350
58
  3
B7
350
59
  3
B8
350
5A
  3
B9
350
5B
  3
C0
350
5C
  3
C1
350
5D
  3
C2
350
5E
  3
C3
350
5F
  3
C4
350
60
  3
C5
350
61
  3
C6
350
62
  3
C7
350
63
  3
C8
350
64
  3
C9
350
65
  3
D0
350
66
  3
D1
350
67
  3
D2
350
68
  0
LAYOUT
  5
1E
102
{ACAD_REACTORS
330
1A
102
}
330
1A
100
AcDbPlotSettings
  1

  2
none_device
  4
ISO_A4_(210.00_x_297.00_MM)
  6

 40
7.5
 41
20.0
 42
7.5
 43
20.0
 44
210.0
 45
297.0
 46
0.0
 47
0.0
 48
0.0
 49
0.0
140
0.0
141
0.0
142
1.0
143
4.1333333333
 70
   688
 72
     1
 73
     1
 74
     1
  7

 75
     0
147
0.2419354839
148
279.2
149
72.9
100
AcDbLayout
  1
_Back
 70
     1
 71
     1
 10
-361.8666666667
 20
-103.9
 11
865.7333333333
 21
764.1
 12
0.0
 22
0.0
 32
0.0
 14
-279.2
 24
-72.9
 34
0.0
 15
279.2
 25
733.1
 35
0.0
146
0.0
 13
0.0
 23
0.0
 33
0.0
 16
1.0
 26
0.0
 36
0.0
 17
0.0
 27
1.0
 37
0.0
 76
     0
330
1B
331
23E
  0
LAYOUT
  5
17E
102
{ACAD_REACTORS
330
1A
102
}
330
1A
100
AcDbPlotSettings
  1

  2
none_device
  4
ISO_A4_(210.00_x_297.00_MM)
  6

 40
7.5
 41
20.0
 42
7.5
 43
20.0
 44
210.0
 45
297.0
 46
0.0
 47
0.0
 48
0.0
 49
0.0
140
0.0
141
0.0
142
1.0
143
4.1333333333
 70
   688
 72
     1
 73
     1
 74
     1
  7

 75
     0
147
0.2419354839
148
279.2
149
72.9
100
AcDbLayout
  1
_Isometric
 70
     1
 71
     4
 10
0.0
 20
0.0
 11
0.0
 21
0.0
 12
0.0
 22
0.0
 32
0.0
 14
0.0
 24
0.0
 34
0.0
 15
0.0
 25
0.0
 35
0.0
146
0.0
 13
0.0
 23
0.0
 33
0.0
 16
1.0
 26
0.0
 36
0.0
 17
0.0
 27
1.0
 37
0.0
 76
     0
330
17D
331
244
  0
LAYOUT
  5
26
102
{ACAD_REACTORS
330
1A
102
}
330
1A
100
AcDbPlotSettings
  1

  2
none_device
  4
ISO_A4_(210.00_x_297.00_MM)
  6

 40
7.5
 41
20.0
 42
7.5
 43
20.0
 44
210.0
 45
297.0
 46
0.0
 47
0.0
 48
0.0
 49
0.0
140
0.0
141
0.0
142
1.0
143
4.1333333333
 70
   688
 72
     1
 73
     1
 74
     1
  7

 75
     0
147
0.2419354839
148
279.2
149
72.9
100
AcDbLayout
  1
_Left
 70
     1
 71
     2
 10
0.0
 20
0.0
 11
0.0
 21
0.0
 12
0.0
 22
0.0
 32
0.0
 14
0.0
 24
0.0
 34
0.0
 15
0.0
 25
0.0
 35
0.0
146
0.0
 13
0.0
 23
0.0
 33
0.0
 16
1.0
 26
0.0
 36
0.0
 17
0.0
 27
1.0
 37
0.0
 76
     0
330
23
331
240
  0
LAYOUT
  5
154
102
{ACAD_REACTORS
330
1A
102
}
330
1A
100
AcDbPlotSettings
  1

  2
none_device
  4
ISO_A4_(210.00_x_297.00_MM)
  6

 40
7.5
 41
20.0
 42
7.5
 43
20.0
 44
210.0
 45
297.0
 46
0.0
 47
0.0
 48
0.0
 49
0.0
140
0.0
141
0.0
142
1.0
143
4.1333333333
 70
   688
 72
     1
 73
     1
 74
     1
  7

 75
     0
147
0.2419354839
148
279.2
149
72.9
100
AcDbLayout
  1
_Top
 70
     1
 71
     3
 10
0.0
 20
0.0
 11
0.0
 21
0.0
 12
0.0
 22
0.0
 32
0.0
 14
0.0
 24
0.0
 34
0.0
 15
0.0
 25
0.0
 35
0.0
146
0.0
 13
0.0
 23
0.0
 33
0.0
 16
1.0
 26
0.0
 36
0.0
 17
0.0
 27
1.0
 37
0.0
 76
     0
330
153
331
242
  0
LAYOUT
  5
22
102
{ACAD_REACTORS
330
1A
102
}
330
1A
100
AcDbPlotSettings
  1

  2
none_device
  4
ANSI_A_(11.00_x_8.50_Inches)
  6

 40
6.35
 41
19.05
 42
6.35000508
 43
19.05000254
 44
279.4
 45
215.9
 46
133.34999746
 47
1.3616561742
 48
0.0
 49
0.0
140
0.0
141
0.0
142
0.0104404467
143
1.0
 70
  1696
 72
     0
 73
     0
 74
     0
  7

 75
     0
147
0.0179189148
148
-1300.4909072572
149
0.0
100
AcDbLayout
  1
Model
 70
     1
 71
     0
 10
0.0
 20
0.0
 11
420.0
 21
297.0
 12
0.0
 22
0.0
 32
0.0
 14
-279.2
 24
-72.9
 34
0.0
 15
279.2
 25
733.1
 35
0.0
146
0.0
 13
0.0
 23
0.0
 33
0.0
 16
1.0
 26
0.0
 36
0.0
 17
0.0
 27
1.0
 37
0.0
 76
     0
330
1F
331
29
  0
MLINESTYLE
  5
18
102
{ACAD_REACTORS
330
17
102
}
330
17
100
AcDbMlineStyle
  2
Standard
 70
     0
  3

 62
   256
 51
90.0
 52
90.0
 71
     2
 49
0.5
 62
   256
  6
BYLAYER
 49
-0.5
 62
   256
  6
BYLAYER
  0
ACDBPLACEHOLDER
  5
F
102
{ACAD_REACTORS
330
E
102
}
330
E
  0
SCALE
  5
48
102
{ACAD_REACTORS
330
47
102
}
330
47
100
AcDbScale
 70
     0
300
1:1
140
1.0
141
1.0
290
     1
  0
SCALE
  5
49
102
{ACAD_REACTORS
330
47
102
}
330
47
100
AcDbScale
 70
     0
300
1:2
140
1.0
141
2.0
290
     0
  0
SCALE
  5
4A
102
{ACAD_REACTORS
330
47
102
}
330
47
100
AcDbScale
 70
     0
300
1:4
140
1.0
141
4.0
290
     0
  0
SCALE
  5
4B
102
{ACAD_REACTORS
330
47
102
}
330
47
100
AcDbScale
 70
     0
300
1:5
140
1.0
141
5.0
290
     0
  0
SCALE
  5
4C
102
{ACAD_REACTORS
330
47
102
}
330
47
100
AcDbScale
 70
     0
300
1:8
140
1.0
141
8.0
290
     0
  0
SCALE
  5
4D
102
{ACAD_REACTORS
330
47
102
}
330
47
100
AcDbScale
 70
     0
300
1:10
140
1.0
141
10.0
290
     0
  0
SCALE
  5
4E
102
{ACAD_REACTORS
330
47
102
}
330
47
100
AcDbScale
 70
     0
300
1:16
140
1.0
141
16.0
290
     0
  0
SCALE
  5
4F
102
{ACAD_REACTORS
330
47
102
}
330
47
100
AcDbScale
 70
     0
300
1:20
140
1.0
141
20.0
290
     0
  0
SCALE
  5
50
102
{ACAD_REACTORS
330
47
102
}
330
47
100
AcDbScale
 70
     0
300
1:30
140
1.0
141
30.0
290
     0
  0
SCALE
  5
51
102
{ACAD_REACTORS
330
47
102
}
330
47
100
AcDbScale
 70
     0
300
1:40
140
1.0
141
40.0
290
     0
  0
SCALE
  5
52
102
{ACAD_REACTORS
330
47
102
}
330
47
100
AcDbScale
 70
     0
300
1:50
140
1.0
141
50.0
290
     0
  0
SCALE
  5
53
102
{ACAD_REACTORS
330
47
102
}
330
47
100
AcDbScale
 70
     0
300
1:100
140
1.0
141
100.0
290
     0
  0
SCALE
  5
54
102
{ACAD_REACTORS
330
47
102
}
330
47
100
AcDbScale
 70
     0
300
2:1
140
2.0
141
1.0
290
     0
  0
SCALE
  5
55
102
{ACAD_REACTORS
330
47
102
}
330
47
100
AcDbScale
 70
     0
300
4:1
140
4.0
141
1.0
290
     0
  0
SCALE
  5
56
102
{ACAD_REACTORS
330
47
102
}
330
47
100
AcDbScale
 70
     0
300
8:1
140
8.0
141
1.0
290
     0
  0
SCALE
  5
57
102
{ACAD_REACTORS
330
47
102
}
330
47
100
AcDbScale
 70
     0
300
10:1
140
10.0
141
1.0
290
     0
  0
SCALE
  5
58
102
{ACAD_REACTORS
330
47
102
}
330
47
100
AcDbScale
 70
     0
300
100:1
140
100.0
141
1.0
290
     0
  0
SCALE
  5
59
102
{ACAD_REACTORS
330
47
102
}
330
47
100
AcDbScale
 70
     0
300
1/128" = 1'-0"
140
0.0078125
141
12.0
290
     0
  0
SCALE
  5
5A
102
{ACAD_REACTORS
330
47
102
}
330
47
100
AcDbScale
 70
     0
300
1/64" = 1'-0"
140
0.015625
141
12.0
290
     0
  0
SCALE
  5
5B
102
{ACAD_REACTORS
330
47
102
}
330
47
100
AcDbScale
 70
     0
300
1/32" = 1'-0"
140
0.03125
141
12.0
290
     0
  0
SCALE
  5
5C
102
{ACAD_REACTORS
330
47
102
}
330
47
100
AcDbScale
 70
     0
300
1/16" = 1'-0"
140
0.0625
141
12.0
290
     0
  0
SCALE
  5
5D
102
{ACAD_REACTORS
330
47
102
}
330
47
100
AcDbScale
 70
     0
300
3/32" = 1'-0"
140
0.09375
141
12.0
290
     0
  0
SCALE
  5
5E
102
{ACAD_REACTORS
330
47
102
}
330
47
100
AcDbScale
 70
     0
300
1/8" = 1'-0"
140
0.125
141
12.0
290
     0
  0
SCALE
  5
5F
102
{ACAD_REACTORS
330
47
102
}
330
47
100
AcDbScale
 70
     0
300
3/16" = 1'-0"
140
0.1875
141
12.0
290
     0
  0
SCALE
  5
60
102
{ACAD_REACTORS
330
47
102
}
330
47
100
AcDbScale
 70
     0
300
1/4" = 1'-0"
140
0.25
141
12.0
290
     0
  0
SCALE
  5
61
102
{ACAD_REACTORS
330
47
102
}
330
47
100
AcDbScale
 70
     0
300
3/8" = 1'-0"
140
0.375
141
12.0
290
     0
  0
SCALE
  5
62
102
{ACAD_REACTORS
330
47
102
}
330
47
100
AcDbScale
 70
     0
300
1/2" = 1'-0"
140
0.5
141
12.0
290
     0
  0
SCALE
  5
63
102
{ACAD_REACTORS
330
47
102
}
330
47
100
AcDbScale
 70
     0
300
3/4" = 1'-0"
140
0.75
141
12.0
290
     0
  0
SCALE
  5
64
102
{ACAD_REACTORS
330
47
102
}
330
47
100
AcDbScale
 70
     0
300
1" = 1'-0"
140
1.0
141
12.0
290
     0
  0
SCALE
  5
65
102
{ACAD_REACTORS
330
47
102
}
330
47
100
AcDbScale
 70
     0
300
1-1/2" = 1'-0"
140
1.5
141
12.0
290
     0
  0
SCALE
  5
66
102
{ACAD_REACTORS
330
47
102
}
330
47
100
AcDbScale
 70
     0
300
3" = 1'-0"
140
3.0
141
12.0
290
     0
  0
SCALE
  5
67
102
{ACAD_REACTORS
330
47
102
}
330
47
100
AcDbScale
 70
     0
300
6" = 1'-0"
140
6.0
141
12.0
290
     0
  0
SCALE
  5
68
102
{ACAD_REACTORS
330
47
102
}
330
47
100
AcDbScale
 70
     0
300
1'-0" = 1'-0"
140
12.0
141
12.0
290
     0
  0
ENDSEC
  0
EOF
